Inventario general EXIN Castillos


Sin pretender llegar a la perfeccion de Peeron como inventario definitivo de piezas Lego, presento aqui los inventarios APROXIMADOS de las cajas de EXIN Castillos que conozco.

No dudes en corregirme si detectas algún error.

Pieza \ Caja EXIN Castillos 0 EXIN Castillos 1 EXIN Castillos 2 EXIN Castillos 3 Gran Alcazar X Gran Alcazar XI Gran Alcazar XII Gran Alcazar XIII EXIN mini Castillos S Serie Dorada I Serie Dorada II Serie Dorada III Serie Dorada IV Serie Dorada V Castillo de los Pitufos II EXIN Castillos II EXIN Castillos III Camelot Fernando III el Santo Gran Castillo Medieval Isabel la Católica Jaime I El Conquistador Mansión Monster Temporal
Almena Cuadrada Grande
Almena Cuadrada Grande
11111122-----------3121-
Almena Cuadrada Pequeña
Almena Cuadrada Pequeña
----1---112322-23-2311--
Almena Redonda Grande
Almena Redonda Grande
11221222----------2312--
Almena Redonda Pequeña
Almena Redonda Pequeña
-1211113-21123311-29114-
Antorcha
Antorcha
----2141----------421565-
Ballestero
Ballestero
---1--------------3-47--
Bandera para Tejado
Bandera para Tejado
---------33333-22-------
Base Golden I
Base Golden I
---------1--------------
Base Golden II
Base Golden II
----------1-------------
Base Golden III
Base Golden III
-----------1------------
Base Golden IV
Base Golden IV
------------1-----------
Base Golden V
Base Golden V
-------------1----------
Base de Plastico Central
Base de Plastico Central
---1--------------------
Base de Plastico Derecha
Base de Plastico Derecha
--11--------------------
Base de Plastico Izquierda
Base de Plastico Izquierda
-111--------------------
Bruja sobre Escoba
Bruja sobre Escoba
--111-2-----------1-1---
Caballero armadura
Caballero armadura
----------------1-------
Cañon
Cañon
---1-----11111----------
Cañonero
Cañonero
---1--------------------
Cornisa
Cornisa
8-11331249--64917-73--422-6-
Cornisa triple
Cornisa triple
--13--232--12418-12-------
Cubo 1x1
Cubo 1x1
141022284-1226--3---13--61417322-
Cubo 2x1
Cubo 2x1
-41217-2-3--11--111-------
Cubo Biselado
Cubo Biselado
----12313948-97913102179-261211522--
Escalera
Escalera
------12-----------1-1--
Escalera Derecha
Escalera Derecha
-------------------1----
Escalera con Ataud de Drácula
Escalera con Ataud de Drácula
----------------------1-
Escalera Izquierda
Escalera Izquierda
-------------------1----
Escudo
Escudo
----2364-11111111-2322--
Escudo con Balanceo
Escudo con Balanceo
-------------------2----
Esqueleto
Esqueleto
----------------------2-
Fantasma Alto
Fantasma Alto
--111-1-----------2-13--
Fantasma Bajo
Fantasma Bajo
--11--2-------------1---
Frankenstein
Frankenstein
----------------------1-
Gárgola
Gárgola
----------------------4-
Ladrillo 1x1
Ladrillo 1x1
243560755465146158102032477091252949-642925110597-
Ladrillo 1x1 con Bisel
Ladrillo 1x1 con Bisel
----45812--2--132--43224-
Ladrillo 2x1
Ladrillo 2x1
1471723104491552343475446948921241561948690128-2241077164361313-
Ladrillo 2x1 con Bisel
Ladrillo 2x1 con Bisel
----14162447--2645926-134912154-
Ladrillo 2x1 con Eje
Ladrillo 2x1 con Eje
----------------------2-
Ladrillo 2x1 Escalera
Ladrillo 2x1 Escalera
-----81211-2-3889-3-------
Ladrillol 2x1 Escalera en Angulo
Ladrillol 2x1 Escalera en Angulo
-----222-1-1----1-------
Ladrillo 2x1 con Placa Plana 2x2
Ladrillo 2x1 con Placa Plana 2x2
------------------229-24-
Ladrillo 2x1 con Soporte a la Derecha
Ladrillo 2x1 con Soporte a la Derecha
-------------------2----
Ladrillo 2x1 con Soporte a la Izquierda
Ladrillo 2x1 con Soporte a la Izquierda
-------------------2----
Ladrillo 8x1
Ladrillo 8x1
-12--124-----2----19-22-
Ladrillo Cilindrico 1x1
Ladrillo Cilindrico 1x1
------42----------------
Ladrillo Curvo Corto
Ladrillo Curvo Corto
1525515518425944----------43108105913-
Ladrillo Curvo Corto de 3
Ladrillo Curvo Corto de 3
-------39----------------
Ladrillo Curvo Largo
Ladrillo Curvo Largo
1920424617324033----------3479133211-
Ladrillo Curvo Largo de 5
Ladrillo Curvo Largo de 5
-------22----------------
Ladrillo Semicurvo Derecha
Ladrillo Semicurvo Derecha
--4-2246----------172046--
Ladrillo Semicurvo Izquierda
Ladrillo Semicurvo Izquierda
--4-2246----------------
Lancero
Lancero
---2-1---22222----------
Mastil de Bandera
Mastil de Bandera
--11111-111211111-2211--
Mastil para Tejado
Mastil para Tejado
---------33333-21-------
Mecanismo para abrir Puerta
Mecanismo para abrir Puerta
----------------------1-
Momia
Momia
----------------------1-
Novia de Frankenstein
Novia de Frankenstein
----------------------1-
Placa 1x1
Placa 1x1
---------112511-12-----25-
Placa 2x1
Placa 2x1
---------4111414211-------
Placa 2x2
Placa 2x2
------------641---------
Placa 3x2
Placa 3x2
----------4332143-------
Placa 3x9
Placa 3x9
-----234-11132211-------
Placa 8x4
Placa 8x4
124411241--1-2--1-24-22-
Placa 8x8
Placa 8x8
11221223-----------31---
Placa con Peldaño
Placa con Peldaño
------------24----------
Placa Plana 1x1
Placa Plana 1x1
--2-64142316-42-11342-248712-
Placa Plana 1x1 en Pendiente
Placa Plana 1x1 en Pendiente
----22295056-84152113-415-429-1812-
Placa Plana 2x1
Placa Plana 2x1
6-2-364173--361--3-1043165-
Placa Plana 2x1 en Pendiente
Placa Plana 2x1 en Pendiente
-------3----------------
Portafuegos
Portafuegos
-----223-11111131-------
Princesa
Princesa
--11-11-----------------
Princesa regordeta morena
Princesa regordeta morena
---------------11-------
Princesa regordeta rubia
Princesa regordeta rubia
----------------1-------
Principe a Caballo
Principe a Caballo
--11-11-----------------
Puente de 12
Puente de 12
------23----------------
Puente de 3
Puente de 3
6464969103-2311-23-7389118-
Puente de 4
Puente de 4
2475449172-1-324---49114-
Puente de 8
Puente de 8
-----335--1132111--4-1--
Puente Levadizo (series clasicas)
Puente Levadizo (series clasicas)
-122---1----------------
Puente Levadizo (nueva edicion)
Puente Levadizo (nueva edicion)
------------------11-1--
Puerta
Puerta
------------12----------
Puerta con Rastrillo (series clasicas)
Puerta con Rastrillo (series clasicas)
-----111----------------
Puerta Monster
Puerta Monster
----------------------1-
Puerta con Reja
Puerta con Reja
----11111---------121-2-
Redondo
Redondo
213516654223381123-11612932-
Redondo con 1 Muesca
Redondo con 1 Muesca
11616461149357111635-175641028-
Redondo con 2 Muescas
Redondo con 2 Muescas
-246-23421---21---281---
Rey Regordete
Rey Regordete
---------------11-------
Rueda de Tortura
Rueda de Tortura
----------------------1-
Tejado Cuadrado
Tejado Cuadrado
-------------------2--1-
Tejado Cuadrado con Mastil
Tejado Cuadrado con Mastil
----------2222-22-------
Tejado Cuadrado con Mastil Grande
Tejado Cuadrado con Mastil Grande
------------11----------
Tejado Inclinado
Tejado Inclinado
-------------3----------
Tejado Placa
Tejado Placa
-----------2-3----------
Tejado Placa 4x2
Tejado Placa 4x2
----------2218-22-------
Tejado Placa Derecha
Tejado Placa Derecha
---------11164--1-------
Tejado Placa Izquierda
Tejado Placa Izquierda
---------11164612-------
Tejado Redondo Extra Grande
Tejado Redondo Extra Grande
-------1----------------
Tejado Redondo Grande
Tejado Redondo Grande
11121222----------21121-
Tejado Redondo Pequeño Alto
Tejado Redondo Pequeño Alto
--111113------2----7111-
Tejado Redondo Pequeño Alto con Mastil
Tejado Redondo Pequeño Alto con Mastil
---------1-123--1-------
Tejado Redondo Pequeño Bajo
Tejado Redondo Pequeño Bajo
1-12-2222---------23121-
Tejado Remate
Tejado Remate
---------13438334-------
Trampilla
Trampilla
----------------------1-
Trompetero
Trompetero
---1--1--11111----------
Trovador Regordete
Trovador Regordete
---------------1--------
Ventana Curva
Ventana Curva
-24714811------3---414253-
Ventana Grande con Reja
Ventana Grande con Reja
-254-244------1---------
Ventana Grande sin Reja
Ventana Grande sin Reja
------------------2---1-
Ventana Recta
Ventana Recta
-3645345----------26344-
Ventana con Vidriera Curva
Ventana con Vidriera Curva
----------1124-11-------
Ventana con Vidriera Doble Alta
Ventana con Vidriera Doble Alta
------------45----------
Ventana con Vidriera Doble Baja
Ventana con Vidriera Doble Baja
----------26712-26-------
Ventana con Vidriera Recta
Ventana con Vidriera Recta
---------33559-35-------


EddieTheWild@gmail.com
July 23, 2003