Inventario general EXIN Castillos


Sin pretender llegar a la perfeccion de Peeron como inventario definitivo de piezas Lego, presento aqui los inventarios APROXIMADOS de las cajas de EXIN Castillos que conozco.

No dudes en corregirme si detectas algún error.

Pieza \ Caja EXIN Castillos 0 EXIN Castillos 1 EXIN Castillos 2 EXIN Castillos 3 Gran Alcazar X Gran Alcazar XI Gran Alcazar XII Gran Alcazar XIII EXIN mini Castillos E EXIN mini Castillos P EXIN mini Castillos S Serie Dorada I Serie Dorada II Serie Dorada III Serie Dorada IV Serie Dorada V SerieDorada VI Castillo de los Pitufos II EXIN Castillos II EXIN Castillos III Batalla de las Tinieblas Camelot Fernando III el Santo Gran Castillo Medieval Isabel la Católica Jaime I El Conquistador Mansión Monster Temporal
Almena Cuadrada Grande
Almena Cuadrada Grande
11111122------------2--3121-
Almena Cuadrada Pequeña
Almena Cuadrada Pequeña
----1---211123227-232-2311-4
Almena Redonda Grande
Almena Redonda Grande
11221222------------142312--
Almena Redonda Pequeña
Almena Redonda Pequeña
-1221113--12112343113229114-
Antorcha
Antorcha
----21442-----------75421565-
Ballestero
Ballestero
--11---2-------------33-47--
Bandera para Tejado
Bandera para Tejado
-----------333338-22--------
Base Golden I
Base Golden I
-----------1----------------
Base Golden II
Base Golden II
------------1---------------
Base Golden III
Base Golden III
-------------1--------------
Base Golden IV
Base Golden IV
--------------1-------------
Base Golden V
Base Golden V
---------------1------------
Base Golden VI
Base Golden VI
----------------1-----------
Base de Plastico de modelo Azul1
Base de Plastico de modelo Azul1
-1--------------------------
Base de Plastico Central
Base de Plastico Central
---1------------------------
Base de Plastico Derecha
Base de Plastico Derecha
--11------------------------
Base de Plastico Izquierda
Base de Plastico Izquierda
--11------------------------
Bruja sobre Escoba
Bruja sobre Escoba
11111121--------------1-1---
Caballero armadura
Caballero armadura
-------------------1--------
Cañon
Cañon
---1---1---111113-----------
Cañonero
Cañonero
---1---1--------------------
Cornisa
Cornisa
8-11912495-3-6491738-73214-422-6-
Cornisa triple
Cornisa triple
2-1314-232----1241827-122-------
Cubo 1x1
Cubo 1x1
141022324-1226----3----13-33-61417322-
Cubo 2x1
Cubo 2x1
-61221-2-3----11---111--------
Cubo Biselado
Cubo Biselado
----1231394812--97913102621793338261231522--
Escalera
Escalera
------12--------------------
Escalera Corta
Escalera Corta
--------------------11-1-1--
Escalera Derecha
Escalera Derecha
-----------------------1----
Escalera con Ataud de Drácula
Escalera con Ataud de Drácula
--------------------------1-
Escalera Izquierda
Escalera Izquierda
-----------------------1----
Escudo
Escudo
----23671--111113111312322--
Escudo con Balanceo
Escudo con Balanceo
-----------------------2----
Esqueleto
Esqueleto
--------------------------2-
Fantasma Alto
Fantasma Alto
-1111111-------------12-13--
Fantasma Bajo
Fantasma Bajo
1111--21----------------1---
Frankenstein
Frankenstein
--------------------------1-
Gárgola
Gárgola
--------------------------4-
Ladrillo 1x1
Ladrillo 1x1
243560108546514615849412203247709124425294910963642865110597-
Ladrillo 1x1 con Bisel
Ladrillo 1x1 con Bisel
----4581210---2--1232-5843224-
Ladrillo 2x1
Ladrillo 2x1
1471723104931552343475441154268489212415619461786901287182292241047164361313-
Ladrillo 2x1 con Bisel
Ladrillo 2x1 con Bisel
----1416244710---264514926494134912154-
Ladrillo 2x1 con Eje
Ladrillo 2x1 con Eje
--------------------------2-
Ladrillo 2x1 Escalera
Ladrillo 2x1 Escalera
-----81211---2-38899-3--------
Ladrillo 2x1 Escalera en Angulo
Ladrillo 2x1 Escalera en Angulo
-----222---1-1--1--1--------
Ladrillo 2x1 con Placa Plana 2x2
Ladrillo 2x1 con Placa Plana 2x2
--------------------62229-24-
Ladrillo 2x1 con Soporte a la Derecha
Ladrillo 2x1 con Soporte a la Derecha
-----------------------2----
Ladrillo 2x1 con Soporte a la Izquierda
Ladrillo 2x1 con Soporte a la Izquierda
-----------------------2----
Ladrillo 8x1
Ladrillo 8x1
-123-124-------28---1119-22-
Ladrillo Cilindrico 1x1
Ladrillo Cilindrico 1x1
------42--------------------
Ladrillo Curvo Corto
Ladrillo Curvo Corto
1525515918425944------------1810743108105913-
Ladrillo Curvo Corto de 3
Ladrillo Curvo Corto de 3
-------39--------------------
Ladrillo Curvo Largo
Ladrillo Curvo Largo
1920425117324033------------14863480133211-
Ladrillo Curvo Largo de 5
Ladrillo Curvo Largo de 5
-------22--------------------
Ladrillo Semicurvo Derecha
Ladrillo Semicurvo Derecha
--442246------------2261720-6--
Ladrillo Semicurvo Izquierda
Ladrillo Semicurvo Izquierda
--442246--------------------
Lancero
Lancero
---2-1-2---222227-----------
Mastil de Bandera
Mastil de Bandera
111111111111121121112-2211--
Mastil para Tejado
Mastil para Tejado
-----------333334-21--------
Mecanismo para abrir Puerta
Mecanismo para abrir Puerta
--------------------------1-
Momia
Momia
--------------------------1-
Novia de Frankenstein
Novia de Frankenstein
--------------------------1-
Placa 1x1
Placa 1x1
-----------11251112-12------25-
Placa 2x1
Placa 2x1
-----------411141479211--------
Placa 2x2
Placa 2x2
--------------64371----------
Placa 3x2
Placa 3x2
------------433219143--------
Placa 3x9
Placa 3x9
-----234---111321211--------
Placa 8x4
Placa 8x4
324411241-1--1-24--12124-22-
Placa 8x8
Placa 8x8
-1221223--------4---31-31---
Placa con Peldaño
Placa con Peldaño
--------------244-----------
Placa Plana 1x1
Placa Plana 1x1
8-22641423-1415-42-113342-1248712-
Placa Plana 1x1 en Pendiente
Placa Plana 1x1 en Pendiente
----2229505620--8415211336-4151913428-1812-
Placa Plana 2x1
Placa Plana 2x1
8-2236417-13--3616--32111043165-
Placa Plana 2x1 en Pendiente
Placa Plana 2x1 en Pendiente
-------4--------------------
Portafuegos
Portafuegos
-----225---111114131--------
Princesa
Princesa
-111-111--------------------
Princesa regordeta morena
Princesa regordeta morena
------------------11--------
Princesa regordeta rubia
Princesa regordeta rubia
-------------------1--------
Príncipe a Caballo
Príncipe a Caballo
-111-111--------------------
Puente de 12
Puente de 12
------23--------------------
Puente de 3
Puente de 3
646796910623-23114-236127369118-
Puente de 4
Puente de 4
247944917312-1-3234--10849114-
Puente de 8
Puente de 8
-----335----11329111--------
Puente de 8 Arco Corto
Puente de 8 Arco Corto
--------------------11-4-1--
Puente Levadizo (series clasicas)
Puente Levadizo (series clasicas)
-122---1--------------------
Puente Levadizo (nueva edicion)
Puente Levadizo (nueva edicion)
---------------------111-1--
Puerta
Puerta
--------------123-----------
Puerta con Rastrillo (series clasicas)
Puerta con Rastrillo (series clasicas)
-----111--------------------
Puerta Monster
Puerta Monster
--------------------------1-
Puerta con Reja
Puerta con Reja
----11112-1---------7-121-2-
Redondo
Redondo
213416652242233810112373711612932-
Redondo con 1 Muesca
Redondo con 1 Muesca
-16764611646935711211635838175641028-
Redondo con 2 Muescas
Redondo con 2 Muescas
1243-234-221---231--21281---
Rey Regordete
Rey Regordete
------------------11--------
Rueda de Tortura
Rueda de Tortura
--------------------------1-
Tejado Cuadrado
Tejado Cuadrado
---------------------1-2--1-
Tejado Cuadrado con Mastil
Tejado Cuadrado con Mastil
------------22225-22--------
Tejado Cuadrado con Mastil Grande
Tejado Cuadrado con Mastil Grande
--------------113-----------
Tejado Inclinado
Tejado Inclinado
---------------32-----------
Tejado Placa
Tejado Placa
-------------2-318-----------
Tejado Placa 4x2
Tejado Placa 4x2
------------221817-22--------
Tejado Placa Derecha
Tejado Placa Derecha
-----------1116428--1--------
Tejado Placa Izquierda
Tejado Placa Izquierda
-----------1116426612--------
Tejado Redondo Extra Grande
Tejado Redondo Extra Grande
-------1--------------------
Tejado Redondo Grande
Tejado Redondo Grande
11121222------------1421121-
Tejado Redondo Pequeño Alto
Tejado Redondo Pequeño Alto
-1111113---------2--32-7111-
Tejado Redondo Pequeño Alto con Mastil
Tejado Redondo Pequeño Alto con Mastil
-----------1-1234--1--------
Tejado Redondo Pequeño Bajo
Tejado Redondo Pequeño Bajo
1112-222222----------526121-
Tejado Remate
Tejado Remate
-----------1343821334--------
Trampilla
Trampilla
--------------------------1-
Trompetero
Trompetero
---1--11---111112-----------
Trovador Regordete
Trovador Regordete
------------------1---------
Ventana Curva
Ventana Curva
-247148112--------3--49414253-
Ventana Grande con Reja
Ventana Grande con Reja
-257-244--------